Radiohead - Street Spirit

Uit WikiStrompf
Ga naar: navigatie, zoeken

Intro

Am - Asus4 - Am - Asus2  x4

Verse 1

Am   Asus4  Am  Asus2
Rows of     houses
Am  Asus4   Am      Asus2
All bearing down on me
Am   Asus4   Am    Asus2
I    can     feel  their
Am   Asus4 Am       Asus2
Blue hands touching me
Em        Em7    Em   Em*
All these things into position
Em        Em7          Em      Em*
All these things we'll one day swallow hole

Chorus

    C    C9   C   CM7
And fade
Em    Em7    Em     Em*
Out
Am    Asus4  Am     Asus2
Again
    C    C9   C   CM7
And fade
Em    Em7    Em     Em*
Out

Verse 2

Am Asus4 Am Asus2
This machine will
Am  Asus4 Am Asus2
Will not communicate
Am   Asus4   Am    Asus2
These thoughts and the strain I am under
Em        Em7    Em   Em*
Be a world child form a circle
Em        Em7    Em   Em*
Before we all go under

Chorus

    C    C9   C   CM7
And fade
Em    Em7    Em     Em*
Out
Am    Asus4  Am     Asus2
Again
    C    C9   C   CM7
And fade
Em    Em7    Em     Em*
Out
Am    Asus4  Am     Asus2
Again

Bridge

C - C9 - C - CM7
Em - Em7 - Em - Em*
Am - Asus4 - Am - Asus2
Am - Asus4 - Am - Asus2

Notes

  • Capo: -
  • Key: Am

Unusual chords

Asus4.gif
Asus2.gif
Em7
C9

Finger picking pattern

     Am     | Am          | Asus4       | Am         | Asus2       | Am
E-6|--------|-------------|-------------|------------|-------------|--------|
A-5|--x-----|-------------| ------------|------------|-------------|--------|
D-4|-----x--|-------------|-------------|------------|-------------|--x-----|
G-3|--------|----x-----x--|----x-----x--|----x----x--|----x-----x--|-----x--|
B-2|--------|-------x-----|-------x-----|-------x----|-------x-----|--------|
E-1|--------|--x----------|--x----------|--x---------|--x----------|--------|

Inclusief fretnummer, maar dat is eigenlijk redundant, als je de akkoorden maar volgt:

     Am     | Am          | Asus4       | Am         | Asus2       | Am
E-6|--------|-------------|-------------|------------|-------------|-------|
A-5|--0-----|-------------| ------------|------------|-------------|-------|
D-4|-----1--|-------------|-------------|------------|-------------|--0----|
G-3|--------|----1-----1--|----1-----3--|----1----3--|----1-----2--|----1--|
B-2|--------|-------2-----|-------2-----|-------2----|-------2-----|-------|
E-1|--------|--0----------|--0----------|--0---------|--0----------|-------|

Am-toonladder basgitaar

G|------------------------|
D|-------------------5--7-|
A|----------5--7--8-------|
E|-5--7--8----------------|
                     G  A
            D  E  F
   A  B  C

Resources