Radiohead - Street Spirit

Uit WikiStrompf
Ga naar: navigatie, zoeken

Am - Geen capo - Gedetailleerd

Intro - Eerste 16 maten

  1 Asus4                 2 Am          Asus2
a-|------0-----------0----|-------0----------------|
B-|------------3----------|-1-----------0----------|
G-|---------2-----2-----2-|----2-----2-----2-----2-|
D-|----2------------------|-------------------2----|
A-|-0---------------------|------------------------|
E-|-----------------------|------------------------|

Intro - Maten 17-20

 17   Em7       Em7+?     18 Em6              Em7   
a-|-------0-----------0----|-------0----------------|
B-|-------------3----------|-1-----------0----------|
G-|----------0-----0-----0-|----0-----0-----0-----0-|
D-|----2-------------------|-------------------2----|
A-|-0----------------------|------------------------|
E-|------------------------|------------------------|

(rest komt nog)

Notes

  • Capo: -
  • Key: Am

Loopjes

Het nummer bestaat uit een handjevol loopjes dat steeds herhaald wordt.

Am-loopje

  1 Asus4                 2 Am          Asus2
a-|------0-----------0----|-------0----------------|
B-|------------3----------|-1-----------0----------|
G-|---------2-----2-----2-|----2-----2-----2-----2-|
D-|----2------------------|-------------------2----|
A-|-0---------------------|------------------------|
E-|-----------------------|------------------------|

Em (1)-loopje

       E7                                      Em
a-|-------0-----------0----|-------0----------------|
B-|-------------3----------|-1-----------0----------|
G-|----------0-----0-----0-|----0-----0-----0-----0-|
D-|------------------------|-------------------2----|
A-|----2-------------------|------------------------|
E-|-0----------------------|------------------------|

Em (2)-loopje

       ?                                       ?
a-|-------0-----------0----|-------0----------------|
B-|-------------3----------|-1-----------0----------|
G-|----------0-----0-----0-|----0-----0-----0-----0-|
D-|----2-------------------|-------------------2----|
A-|------------------------|------------------------|
E-|-0----------------------|------------------------|

C-loopje

 
a-|------0-----------0----|-------0----------------|
B-|------------3----------|-1-----------0----------|
G-|----0----0-----0-----0-|----0-----0-----0-----0-|
D-|-----------------------|-------------------2----|
A-|-3---------------------|------------------------|
E-|-----------------------|------------------------|

C-loopje outtro

 
a-|------0-----------0----|-------0----------------|
B-|------------3----------|-1-----------0----------|
G-|----0----0-----0-----0-|----0-----0-----0-----0-|
D-|-----------------------|-------------------2----|
A-|-----------------------|------------------------|
E-|-3---------------------|------------------------|

Resources - Ultimate Guitar

  • Official version - Tabs & score, but not the associated chords or lyrics. I used this as my primary source
  • Chord versions are not usable when fingerpicking
  • Tab Pro Version 1 - Tab, score & lyrics. No chords
  • Tab Pro Version 4 - Tab, score & chords!

Resources - Overig

Chords

Asus4.gif
Asus2.gif
Em7
C9