Nirvana - Jesus doesn't want me for a sunbeam

Uit WikiStrompf
Ga naar: navigatie, zoeken

Verse 1

D             C             G       G*  G
Jesus don't want me for a sunbeam
       D            C             G      G*  G
'Cause sunbeams are not made like me
  D                  C               G          G*     G 
Don't expect me to cry for all the reasons you had to die
D            C               G      G*  G
Don't ever ask your love of me  

Chorus

 D                  C
Don't expect me to cry. 
 D                  C
Don't expect me to lie.
 D                  C        G      G*  G
Don't expect me to die for thee.

Verse 2

D             C             G       G*  G
Jesus don't want me for a sunbeam
       D            C             G      G*  G
'Cause sunbeams are not made like me
  D                  C               G          G*     G 
Don't expect me to cry for all the reasons you had to die
D            C               G      G*  G
Don't ever ask your love of me  

Chorus

 D                  C
Don't expect me to cry. 
 D                  C
Don't expect me to lie.
 D                  C        G      G*  G
Don't expect me to die for thee.

Bridge

   D               C                 G    G*   G
e|-------2--0----|----------------|----------|----------|
B|-3--3--------3-|-1--1---3--1--0-|-------1--|----------|
G|---------------|----------------|-0--0-----|-0--0--0--|
D|---------------|----------------|----------|----------| x2
A|---------------|----------------|----------|----------|   
E|---------------|----------------|----------|----------| 

Chorus

 D                  C
Don't expect me to cry. 
 D                  C
Don't expect me to lie.
 D                  C        G      G*  G
Don't expect me to die for thee.

Verse 3

D             C             G       G*  G
Jesus don't want me for a sunbeam
       D            C             G      G*  G
'Cause sunbeams are not made like me
  D                  C               G          G*     G 
Don't expect me to cry for all the reasons you had to die
D            C               G      G*  G
Don't ever ask your love of me  

Chorus

D                  C
Don't expect me to cry. 
D                  C
Don't expect me to lie.
D                  C
Don't expect me to die.
D                  C
Don't expect me to cry. 
D                  C
Don't expect me to lie.
D                  C        G    G*  G
Don't expect me to die for thee.

Outtro

   D               C                 G    G*   G
e|-------2--0----|----------------|----------|----------|
B|-3--3--------3-|-1--1---3--1--0-|-------1--|----------|
G|---------------|----------------|-0--0-----|-0--0--0--|
D|---------------|----------------|----------|----------|
A|---------------|----------------|----------|----------|   
E|---------------|----------------|----------|----------| 

   D               C                 G    G*   G
e|-------2--0----|----------------|----------|-----|
B|-3--3--------3-|-1--1---3--1--0-|-------1--|-0---|
G|---------------|----------------|-0--0-----|-----|
D|---------------|----------------|----------|-----|
A|---------------|----------------|----------|-----|   
E|---------------|----------------|----------|-----|

Notes