Live - Graze

Uit WikiStrompf
Ga naar: navigatie, zoeken

Fm - No capo - Normal tuning

Verse 1

Fm  D#5...
people should not be afraid
we came to the earth to graze
no shortcuts to the face 
this means you
a child gives you his shoes

Verse 2 - 0:29

Intro:

AbhB Ab F:

E|---4h6-4-1-|

Throughout this verse:

Eb E F:

A |-6-7----8

Other guitar:

Fm  D#5...
people should not be afraid
we came to the earth to graze
if it slithers into the haze
it can't be true
a child gives you his shoes

Chorus - 0:55

G#5 E5 C#5...
In the early morning cut her down
the pill she needs your love
forget your mother and your father
they aren't important son

G#5 F#5 Fm...
We came to the earth to graze
everyone's digging in

G#5 F#5 C#...
now there's no time to live

A#m
live

Verse 3 - 1:49

Fm  D#5...
people should not be afraid
the artist does figure eights
but will it stand the test of time
or will it rot
like the mission that tried too hard

Chorus 2 - 2:17

G#5 E5 C#5...
in the early morning, cut her down
the pill she needs your love
forget your mother and your father
you'll fall apart inside

G#5 F#5 Fm...
We came to the earth to graze
everyone's digging in

G#5 F#5 C#...
now there's no time to live

A#m
live

Chorus 3 - 3:10

G#5 F#5 Fm...
We came to the earth to graze
everyone's digging in

G#5 F#5 C#...
now there's no time to live

A#m
live

Guitar solo - 3:33

Chorus 4 - 4:05

G#5 E5 C#5...
in the early morning, cut her down
she really needs your love
forget your mother and your father
they aren't important son

G#5 F#5 Fm...
We came to the earth to graze
everyone's digging in

G#5 F#5 C#...
now there's no time to live

A#m
live

Notes

D♯5 (gitaar) - A-vorm met barré op 6
G♯5 (gitaar) - E-vorm met barré op 4
E5 (gitaar)
C♯5 (gitaar) - A-vorm met barré op 4
F♯5 (gitaar): E-vorm met barré op 2
F♯5 (gitaar) - A-vorm met barré op 9

Fm - Eb-tuning

Verse 1

F#m  E5...
people should not be afraid
we came to the earth to graze
no shortcuts to the face 
this means you
a child gives you his shoes

Verse 2 - 0:29

Intro:

Ab|---0h2-0-------|
Eb|-----------2---|

Throughout this verse:

Eb|--0-1----2~--

Other guitar:

F#m  E5...
people should not be afraid
we came to the earth to graze
if it slithers into the haze
it can't be true
a child gives you his shoes

Chorus - 0:55

A5 F5 D5...
In the early morning cut her down
the pill she needs your love
forget your mother and your father
they aren't important son

A5 G5 F#m...
We came to the earth to graze
everyone's digging in

A5 G5 D...
now there's no time to live

Bm
live

Verse 3 - 1:49

F#m  E5...
people should not be afraid
the artist does figure eights
but will it stand the test of time
or will it rot
like the mission that tried too hard

Chorus 2 - 2:17

A5 F5 D5...
in the early morning, cut her down
the pill she needs your love
forget your mother and your father
you'll fall apart inside

A5 G5 F#m...
We came to the earth to graze
everyone's digging in

A5 G5 D...
now there's no time to live

Bm
live

Chorus 3 - 3:10

A5 G5 F#m...
We came to the earth to graze
everyone's digging in

A5 G5 D...
now there's no time to live

Bm
live

Guitar solo - 3:33

Chorus 4 - 4:05

A5 F5 D5...
in the early morning, cut her down
she really needs your love
forget your mother and your father
they aren't important son

A5 G5 F#m...
We came to the earth to graze
everyone's digging in

A5 G5 D...
now there's no time to live

Bm
live
A5 Guitar - Fret 5
Guitar - F5 - Fret 8
D5 at Fret 5
G5 (3-5-5)

Fm - Eb-tuning (1)

Verse

F#m  E5

Lick as drums come in

Ab|---0h2-0-------|
Eb|-----------2---|

Heavy part

A5   F5 (8th fret)    D5
                        In the early mornin' cut her down...
   A5             G5    F#m
We came to the earth to graze
A5         G5      F#m
Everyone's digging in
A5             G5      D
Now there's no time to live
Bm
Live

Lick throughout second verse

Eb|--0-1----2~--

Notes

   F#m  E5   A5   F5    D5   G5   Bm
Eb|-2----0-------------------------2---|
Bb|-2----0-------------------------3---|
Gb|-2----x---------10----7---------4---|
Db|-4----2----7----10----7----5----4---|
Ab|-4----2----7----8-----5----5----2---|
Eb|-2----0----5---------------3--------|

Fm - Eb-tuning (2)

Verse

        People should not be afraid, we came to the earth to graze

   F#m                          Em    F#m                       Em
---2----------------------------0-----2-------------------------0-------
---2----------------------------0-----2-------------------------0-------
---2----------------------------0-----2-------------------------0-------
---4----------------------------2-----4-------------------------2-------
---4----------------------------2-----4-------------------------2-------
---2----------------------------0-----2-------------------------0-------

Start of drums

The little thingy as the drums start
                                    F#m             Em
------------------------------------2---------------0-------------------
------------------------------------2---------------0-------------------
------------------------------------2---------------0-------------------
------------------------------------4---------------2-------------------
---0h2----0-------------------------4---------------2-------------------
----------------2-------------------2---------------0-------------------

Chorus

                                    In the early morning, cut her down...
------------------------------------------------------------------------
------------------------------------------------------------------------
-------------2----2------------7----------------------------------------
-------------2----2---3--3-----7----------------------------------------
-------------0----0---3--3-----5----------------------------------------
--12/-----------------1--1----------------------------------------------

    ...We came to the earth to graze...Now there's no time to live...

---------------------------------2------------------------------2-------
---------------------------------2------------------------------3-------
-----------2---------------------2-------2----------------------2-------
-----------2---------------5-----4-------2--------------5---------------
-----------0---------------5-----4-------0--------------5---------------
---------------------------3-----2----------------------3---------------


    ...Live~~~~~~~~~~~~~~~~~~~~~~~~~~~~~~~~~~~~~~~
---------2--------------------------------------------------------------
---------3--------------------------------------------------------------
---------4--------------------------------------------------------------
---------4--------------------------------------------------------------
---------2--------------------------------------------------------------
---------2--------------------------------------------------------------

Then play solo.

Resources