Radiohead - Street Spirit: verschil tussen versies

Uit WikiStrompf
Ga naar: navigatie, zoeken
(Loopjes)
 
(5 tussenliggende versies door dezelfde gebruiker niet weergegeven)
Regel 1: Regel 1:
== Am - Geen capo - Gedetailleerd ==
+
== Am - No capo - Detailed ==
  
''' Intro - Eerste 16 maten '''
 
  
<pre>
+
* Bar 1-17: Am-riff
  1 Asus4                2 Am         Asus2
+
*
a-|------0-----------0----|-------0----------------|
 
B-|------------3----------|-1-----------0----------|
 
G-|---------2-----2-----2-|----2-----2-----2-----2-|
 
D-|----2------------------|-------------------2----|
 
A-|-0---------------------|------------------------|
 
E-|-----------------------|------------------------|
 
</pre>
 
  
 
''' Intro - Maten 17-20 '''
 
''' Intro - Maten 17-20 '''
  
<pre>
 
17  Em7      Em7+?    18 Em6              Em7 
 
a-|-------0-----------0----|-------0----------------|
 
B-|-------------3----------|-1-----------0----------|
 
G-|----------0-----0-----0-|----0-----0-----0-----0-|
 
D-|----2-------------------|-------------------2----|
 
A-|-0----------------------|------------------------|
 
E-|------------------------|------------------------|
 
</pre>
 
  
 
(rest komt nog)
 
(rest komt nog)
Regel 32: Regel 15:
 
* Key: '''Am'''
 
* Key: '''Am'''
  
=== Loopjes ===
+
=== Riffs ===
 
 
Het nummer bestaat uit een handjevol loopjes dat steeds herhaald wordt.
 
  
''' Am-loopje '''
+
''' Am-riff '''
  
 
<pre>
 
<pre>
Regel 48: Regel 29:
 
</pre>
 
</pre>
  
''' Em (1)-loopje '''
+
''' Em (1)-riff '''
  
 
<pre>
 
<pre>
      E7                                      Em
+
17  Em7      Em7+?    18 Em6              Em7 
 
a-|-------0-----------0----|-------0----------------|
 
a-|-------0-----------0----|-------0----------------|
 
B-|-------------3----------|-1-----------0----------|
 
B-|-------------3----------|-1-----------0----------|
 
G-|----------0-----0-----0-|----0-----0-----0-----0-|
 
G-|----------0-----0-----0-|----0-----0-----0-----0-|
D-|------------------------|-------------------2----|
+
D-|----2-------------------|-------------------2----|
A-|----2-------------------|------------------------|
+
A-|-0----------------------|------------------------|
E-|-0----------------------|------------------------|
+
E-|------------------------|------------------------|
 
</pre>
 
</pre>
 +
  
 
''' Em (2)-loopje '''
 
''' Em (2)-loopje '''
Regel 96: Regel 78:
 
=== Resources - Ultimate Guitar ===
 
=== Resources - Ultimate Guitar ===
  
* Official version - Tabs & score, but not the associated chords or lyrics. I used this as my primary source
+
* [https://tabs.ultimate-guitar.com/tab/radiohead/street_spirit_fade_out_guitar_pro_1121379 Tab Pro Version 4] - Tab, score & chords! → I follow this version, except for bar numbering (first bar is empty)
 +
* [https://tabs.ultimate-guitar.com/tab/radiohead/street_spirit_fade_out_official_1930545 Official version] - Tabs & score, but not the associated chords or lyrics - Not so handy → I follow the bar numbering from here
 
* Chord versions are not usable when fingerpicking
 
* Chord versions are not usable when fingerpicking
 
* Tab Pro Version 1 - Tab, score & lyrics. No chords
 
* Tab Pro Version 1 - Tab, score & lyrics. No chords
* Tab Pro Version 4 - Tab, score & chords!
 
  
 
=== Resources - Overig ===
 
=== Resources - Overig ===

Huidige versie van 8 jun 2019 om 14:35

Am - No capo - Detailed

  • Bar 1-17: Am-riff

Intro - Maten 17-20


(rest komt nog)

Notes

  • Capo: -
  • Key: Am

Riffs

Am-riff

  1 Asus4                 2 Am          Asus2
a-|------0-----------0----|-------0----------------|
B-|------------3----------|-1-----------0----------|
G-|---------2-----2-----2-|----2-----2-----2-----2-|
D-|----2------------------|-------------------2----|
A-|-0---------------------|------------------------|
E-|-----------------------|------------------------|

Em (1)-riff

 17   Em7       Em7+?     18 Em6              Em7   
a-|-------0-----------0----|-------0----------------|
B-|-------------3----------|-1-----------0----------|
G-|----------0-----0-----0-|----0-----0-----0-----0-|
D-|----2-------------------|-------------------2----|
A-|-0----------------------|------------------------|
E-|------------------------|------------------------|


Em (2)-loopje

       ?                                       ?
a-|-------0-----------0----|-------0----------------|
B-|-------------3----------|-1-----------0----------|
G-|----------0-----0-----0-|----0-----0-----0-----0-|
D-|----2-------------------|-------------------2----|
A-|------------------------|------------------------|
E-|-0----------------------|------------------------|

C-loopje

 
a-|------0-----------0----|-------0----------------|
B-|------------3----------|-1-----------0----------|
G-|----0----0-----0-----0-|----0-----0-----0-----0-|
D-|-----------------------|-------------------2----|
A-|-3---------------------|------------------------|
E-|-----------------------|------------------------|

C-loopje outtro

 
a-|------0-----------0----|-------0----------------|
B-|------------3----------|-1-----------0----------|
G-|----0----0-----0-----0-|----0-----0-----0-----0-|
D-|-----------------------|-------------------2----|
A-|-----------------------|------------------------|
E-|-3---------------------|------------------------|

Resources - Ultimate Guitar

  • Tab Pro Version 4 - Tab, score & chords! → I follow this version, except for bar numbering (first bar is empty)
  • Official version - Tabs & score, but not the associated chords or lyrics - Not so handy → I follow the bar numbering from here
  • Chord versions are not usable when fingerpicking
  • Tab Pro Version 1 - Tab, score & lyrics. No chords

Resources - Overig

Chords

Asus4.gif
Asus2.gif
Em7
C9