Sass Jordan - High Road Easy

Uit WikiStrompf
Ga naar: navigatie, zoeken

Dit dus

Intro

  • Maat 1-4: Accoustische gitaar
  • Maat 5-8: Overstuurde gitaar + drum

Verse 1

  • 8 Maten

Chorus 1

  • 4 Maten?

Break 1

Verse 2

  • 8 Maten

Chorus 2

  • 8 Maten

Break 2

  • 8 Maten

Solo

  • Ca. 8 maten

Verse 3

Chorus 3

2x

Break 3

  • 8 Maten

Outtro

  • 1 of 2 maten

Loopjes

Intro - Acoustic

    D        A         B             D        A                      B
|------------------0--------------|-----------------0----------------------|
|---------3-----------------------|--------3-------------------------------|
|------2--------2------4--4--4--4-|-----2--------2----------------------4--|
|---0--------2---------4--4--4--4-|--0--------2--------2-H-4--2-P-0-----4--|
|----------------------2--2--2--2-|----------------------------------2--2--|
|---------------------------------|----------------------------------------|

verse/chorus - Electric

    D    F                        D    F
|------------------------------|-----------------------------------|
|------------------------------|-----------------------------------|
|---7-7--9-9-------------------|--7-7--9-9-------------------------|
|---7-7--9-9---/9~~--7--7-H-9--|--7-7--9-9-------------------------|
|---5-5--7-7-------------------|--5-5--7-7--7-H-9---7--------------|
|------------------------------|-----------------------10--7--7----|

Notes

D-majeur: Patronen