REM - Walk Unafraid

Uit WikiStrompf
Ga naar: navigatie, zoeken

Guitar

Verse

 Am 
As the sun comes up, as the moon goes down  
 F 
these heavy notions creep around  
 Am 
it makes me think  
 F Am 
long a go I was brought into  
 
this life a little lamb  
 F 
a little lamb  
 Am 
courageous, stumbling  
 F 
fearless was my middle name  
 D 
but somewhere there I lost my name  
 C 
everyone walks the same  
 D 
expecting me to step  
 C 
the narrow path they've laid  

Chorus

they claim to  
 Em G 
walk unafraid  
 Em G 
I'll be clumsy instead  
 Em G D 
hold my love me or leave me high  
Say "keep within the boundaries if you want to play."
Say "contradiction only makes it harder."
How can I be
What I want To be?
When all I want to do is strip away
These stilled constraints
And crush this charade
Shred this sad masquerade
I don't need no persuading
I'll trip, fall, pick myself up and
Walk unafraid
I'll be clumsy instead
Hold my love or leave me high.

If I have a bag of rocks to carry as I go
I just want to hold my head up high
I don't care what I have to step over
I'm prepared to look you in the eye
Look me in the eye
And if you see familiarity
Then celebrate the contradiction
Help me when I fall to
Walk unafraid
I'll be clumsy instead
Hold my love or leave me high.
Walk unafraid
I'll be clumsy instead
Hold my love or leave me high.

Bass

Tuning is Standard
\ = Slide Down
/ = Slide Up
Intro
  1   +   2   +   3   +   4   +    1   +   2   +   3   +   4   +   
G|--------------------------------|--------------------------------|
D|--------------------------------|--------------------------------|
A|----------------0-----0---------|0-----0---------0-----0---------|
E|------------------------------3-|--------------------------------|

Verse 1
  1   +   2   +   3   +   4   +    1   +   2   +   3   +   4   +   
G|--------------------------------|--------------------------------|
D|--------------------------------|--------------------------------|
A|0-----0---------0---------------|--------------------------------|
E|--------------3-----------------|1-----1-------0-1---------------|

G|--------------------------------|--------------------------------|
D|--------------------------------|--------------------------------|
A|0-----0---------0---------------|--------------------------------|
E|--------------3-----------------|1-----1-------0-1---------------|

G|--------------------------------|--------------------------------|
D|--------------------------------|--------------------------------|
A|0-----0---------0-----0---------|--------------------------------|
E|--------------3-----------------|1-----1-------0-1-----1---------|

G|--------------------------------|--------------------------------|
D|--------------------------------|--------------------------------|
A|0-----0---------0-----0---------|--------------------------------|
E|------------------------------0-|1-----1---------1-----1-----1/5-|

Pre-Chorus 1
  1   +   2   +   3   +   4   +    1   +   2   +   3   +   4   +   
G|--------------------------------|--------------------------------|
D|------7---------------7---------|------5---------------5---------|
A|5---------------5-----------5---|3---------------3-----------3---|
E|--------------------------------|--------------------------------|

G|--------------------------------|--------------------------------|
D|------7---------------7---------|------5---------------5---------|
A|5-------------5-5-----------5-0-|3-------------3-3-----------3---|
E|--------------------------------|--------------------------------|

Chorus 1
  1   +   2   +   3   +   4   +    1   +   2   +   3   +   4   +   
G|--------------------------------|--------------------------------|
D|------2-------------------------|------2-------------------------|
A|----------------------5---------|----------------------5---------|
E|0-----------0-2-3-----------3-2-|0-----------0-2-3-----------3-2-|

G|--------------------------------|--------------------------------|
D|------2-------------------------|--------------------------------|
A|----------------------5---------|5-------------------------------|
E|0-----------0-2-3-----------3---|--------------------------------|
Verse 2
  1   +   2   +   3   +   4   +    1   +   2   +   3   +   4   +   
G|--------------------------------|--------------------------------|
D|--------------------------------|--------------------------------|
A|0-----0---------0---------------|--------------------------------|
E|--------------3-----------------|1-----1-------0-1---------------|

G|--------------------------------|--------------------------------|
D|--------------------------------|--------------------------------|
A|0-----0---------0---------------|--------------------------------|
E|--------------3-----------------|1-----1-------0-1---------------|

G|--------------------------------|--------------------------------|
D|--------------------------------|--------------------------------|
A|0-----0---------0-----0---------|--------------------------------|
E|--------------3-----------------|1-----1-------0-1-----1---------|

G|--------------------------------|--------------------------------|
D|--------------------------------|--------------------------------|
A|0-----0---------0-----0---------|--------------------------------|
E|--------------3-----------------|1-----1-------0-1-----1-----1---|

Pre-Chorus 2
  1   +   2   +   3   +   4   +    1   +   2   +   3   +   4   +   
G|--------------------------------|--------------------------------|
D|------7---------------7---------|------5---------------5---------|
A|5---------------5-----------5-0-|3---------------3-----------3---|
E|--------------------------------|--------------------------------|

G|--------------------------------|--------------------------------|
D|------7---------------7---------|------5---------------5---------|
A|5-------------5-5-----------5-0-|3-------------3-3-----------3---|
E|--------------------------------|--------------------------------|

Chorus 2
  1   +   2   +   3   +   4   +    1   +   2   +   3   +   4   +   
G|--------------------------------|--------------------------------|
D|------2-------------------------|------2-------------------------|
A|----------------------5---------|----------------------5---------|
E|0-----------0-2-3-----------3-2-|0-----------0-2-3-----------3-2-|

G|--------------------------------|--------------------------------|
D|------2-------------------------|--------------------------------|
A|----------------------5---------|5-------------------------------|
E|0-----------0-2-3-----------3---|--------------------------------|

Bridge 1
  1   +   2   +   3   +   4   +    1   +   2   +   3   +   4   +   
G|--------------------------------|--------------------------------|
D|--------------------------------|--------------------------------|
A|0-----0---------0-----0---------|0-----0---------0-----0---------|
E|--------------3-----------------|--------------3-----------------|

G|--------------------------------|--------------------------------|
D|--------------------------------|--------------------------------|
A|0-----0---------0-----0---------|--------------------------------|
E|--------------3-----------------|1-----1-------0-1-----1---------|

G|--------------------------------|--------------------------------|
D|--------------------------------|--------------------------------|
A|0-----0---------0-----0---------|--------------------------------|
E|--------------3-----------------|1-----1-------0-1-----1-----3---|

G|--------------------------------|--------------------------------|
D|--------------------------------|--------------------------------|
A|0-----0---------0-----0---------|--------------------------------|
E|--------------3-----------------|1-----1-------0-1-----1---------|

G|--------------------------------|--------------------------------|
D|--------------------------------|--------------------------------|
A|0-----0---------0-----0-----0---|--------------------------------|
E|--------------3-----------------|1-----1---------1-------1-1-3/5-|
Pre-Chorus 3
  1   +   2   +   3   +   4   +    1   +   2   +   3   +   4   +   
G|--------------------------------|--------------------------------|
D|------7---------------7---------|------5---------------5---------|
A|5---------------5-----------5-0-|3---------------3-----------3---|
E|--------------------------------|--------------------------------|

G|--------------------------------|--------------------------------|
D|------7---------------7---------|------5---------------5---------|
A|5-------------5-5-----------5-0-|3-------------3-3-----------3---|
E|--------------------------------|--------------------------------|

Chorus 3
  1   +   2   +   3   +   4   +    1   +   2   +   3   +   4   +   
G|--------------------------------|--------------------------------|
D|------2-------------------------|------2-----------------5-------|
A|----------------------5---------|----------------------5---------|
E|0-----------0-2-3-----------3-2-|0-----------0-2-3-----------3-2-|

G|--------------------------------|--------------------------------|
D|------2-----------------5-------|--------------------------------|
A|----------------------5---------|5-----5-----5---5-----5-----5---|
E|0-----------0-2-3-----------3---|--------------------------------|

G|--------------------------------|--------------------------------|
D|------2-------------------------|------2---------------5---------|
A|----------------------5---------|------------------------5-------|
E|0-----------0-2-3-----------3-2-|0-----------0-2-3-----------3-2-|

G|--------------------------------|--------------------------------|
D|------2-----------------5-------|--------------------------------|
A|----------------------5---------|5-------------------------------|
E|0-----------0-2-3-----------3---|--------------------------------|

G|--------------------------------|--------------------------------|
D|------2-------------------------|------2---------------5---------|
A|----------------------5---------|------------------------5-------|
E|0-----------0-2-3-----------3-2-|0-----------0-2-3-----------3-2-|

G|--------------------------------|--------------------------------|
D|------2-----------------5-------|--------------------------------|
A|----------------------5---------|5-------------------------------|
E|0-----------0-2-3-----------3---|--------------------------------|

Outro
  1   +   2   +   3   +   4   +    1   +   2   +   3   +   4   +   
G|--------------------------------|--------------------------------|
D|--------------------------------|--------------------------------|
A|0-----0---------0-----0---------|0-----0---------0-----0---------|
E|--------------3-----------------|--------------3-----------------|

G|--------------------------------|--------------------------------|
D|--------------------------------|--------------------------------|
A|0-----0---------0-----0---------|0-----0---------0---------------|
E|--------------3-----------------|--------------3-----------------|

Sources