Pearl Jam - Garden

Uit WikiStrompf
Ga naar: navigatie, zoeken

Am - No capo - Pentatonic

Intro - Part 1

Only lead guitar:

| Riff | Riff | Riff | Riff |

Intro - Part 2 - 0:13

All instruments:

| Riff                     | Riff                    |
| So misleading (vocalise) | So misleading (vocalise)|

| Riff                     | Riff                    |
| So misleading (vocalise) | So misleading (vocalise)|

Verse 1 - 0:24

| Riff                     | Riff             |
| The direction of the eye | So misleading    |

| Riff                     | Riff             |
|The defection of the soul | Nauseously quick |

| Riff                     | Riff             |
| I don't question         | Our existence    |

| Riff                     | Riff             |
| I just question          | Our modern needs |

| Riff          | Riff          |
| So misleading | So misleading |

| Riff          | Riff          |
| So misleading | So misleading |

Verse 1 - 0:51

       Am            G     F/C
I will walk, with my hands bound
       Am            G    F/C
I will walk, with my face blood
       Am            G      F/C
I will walk, with my shadow flag
     Am              G      F/C
Into your garden, garden of stone

Break 1

Verse 2

After all is done
And we're still alone
I won't be taken
Yet I'll go
With my hands bound

Chorus 2

       Am            G    F/C
I will walk, with my face blood
       Am            G      F/C
I will walk, with my shadow flag
          Am      G          F/C
Into your garden, garden of stone

Break 2

I don't show
I don't share
I don't need
What you have to give, yeah

Solo - 2:30

...

Chorus 3 - 3:27

       Am            G     F/C
I will walk, with my hands bound
       Am            G    F/C
I will walk, with my face blood
       Am            G      F/C
I will walk, with my shadow flag
     Am              G      F/C
Into your garden, garden of stone

Chorus 4

I will walk, with my hands bound
I will walk, into your garden
Garden of stone

Outtro

I don't know
I don't care
I don't need you for me to live

Riff

  • Deze riff wordt gespeeld tijdens de intro en de coupletten
  • De transcriptie hieronder, is één maat
  • Veel bronnen spelen 'm rond de tweede fret, maar dat is onjuist: Dan kunnen bepaalde tonen niet doorklinken terwijl dat duidelijk wel de bedoeling is. Zie ook live-opnames van Pearl Jam: Daar wordt-ie ook rond de vijfde fret gespeeld
  • Bron:
e|-----------------------------------------------------------------
B|-7(p)-po-5(w)------5(w)-po-0---------------------0------------0--
G|----------------------------------0-ho-5(w)----------5-po-0-----0
D|-7(r)---------7(r)-----------7(r)-----------7(r)---7--------7----
A|-----------------------------------------------------------------
E|-----------------------------------------------------------------

                                                   |←Dit is de enige verandering
e|-------------------------------------------------0---------------
B|-7(p)-po-5(w)------5(w)-po-0----------------------------------0--
G|----------------------------------0-ho-5(w)----------5-po-0-----0
D|-7(r)---------7(r)-----------7(r)-----------7(r)---7--------7----
A|-----------------------------------------------------------------
E|-----------------------------------------------------------------

                                                   |←Dit is de enige verandering
e|-----------------------------------------------------------------
B|-7(p)-po-5(w)------5(w)-po-0---------------------0------------0--
G|----------------------------------0-ho-5(w)----------5-po-0-----0
D|-7(r)---------7(r)-----------7(r)-----------7(r)---7--------7----
A|-----------------------------------------------------------------
E|-----------------------------------------------------------------


e|--------------------------------------------
B|-7(p)-po-5(w)------5(w)-po-0----------------
G|----------------------------------0-ho-5(w)-
D|-7(r)---------7(r)-----------7(r)-----------
A|--------------------------------------------
E|--------------------------------------------

Techniek

  • ho = hammer on
  • po = pull off

Vingers

  • p = pink
  • r = ringvinger
  • m = middelvinger
  • w = wijsvinger
  • d = duim

Solo

UG tabs 775045

  • Ik betwijfel of deze transcriptie erg accuraat en/of relevant is: Ik heb betere ervaringen met Am-pentatonisch rond de 5e fret en daarna rond de 17e fre
  • Bron: Ultimate Guitar, tabs 775045
e|--------------------------------|-----------5----------5------------------------------|
B|--------------------------------|-------5^8---5-8b-------8^5-5------------------------|
G|-7b---------7b-7bp5-----5-5-----|---------------------------7-7br5--------------------|
D|----------------------------7---|---------------------------------7-555---------------|
A|--------------------------------|---------------------------------------7-6-5-3-5br-3-|
E|--------------------------------|-----------------------------------------------------|
                                        Bend the 15 to a 16.5 not 17
e|--------------------------|----12--12--12------------------|
B|--------------------------|----15b-15b-15br---15^13--------|
G|-------5---5-7br-p5--p0---|--------------------------------|
D|---5-7---7----------------|--------------------------------|
A|--------------------------|--------------------------------|
E|--------------------------|--------------------------------|

e|-------20^17---------17--20-20^17--------|--19--20—19-19^20^19-----------|
B|---20b-------20b--20—20b----------20b-20-|----------------------17-------|
G|-----------------------------------------|-------------------------------|
D|-----------------------------------------|-------------------------------|
A|-----------------------------------------|-------------------------------|
E|-----------------------------------------|-------------------------------|

e|-19--20-20-19^20^19-----19--20-20-19^20^19----|----17--17-17--------------------------|
B|--------------------17---------------------17-|-20b—20b---20b--20-17--17--------------|
G|----------------------------------------------|---------------------19—19br-17—17-1917|
D|----------------------------------------------|-------------------------------19------|
A|----------------------------------------------|---------------------------------------|
E|----------------------------------------------|---------------------------------------|

e|----------------------------------------|
B|----------------------------------------|
G|-19-17-19-17-19-17----------------------|
D|-------------------19-17----------------|
A|-------------------------19-18-17-------|
E|----------------------------------20-17-| x3


Tempo increases:
e|-----------------------17^19^17^20^17^19^17^20-20b-20b-20b--17----19----|
B|-------------------20b-----------------------------------20-------------|
G|---19-17-19-17-19-------------------------------------------------------|
D|---19-17-19-17-19-------------------------------------------------------|
A|------------------------------------------------------------------------|
E|------------------------------------------------------------------------|

e|--19^20^19^20^19^20^19^20^19^20^19^20^19^20^19--------------------------|
B|-----------------------------------------------20br---17^20^17----------|
G|----------------------------------------------------19--------191719br--|
D|------------------------------------------------------------------------|
A|------------------------------------------------------------------------|
E|------------------------------------------------------------------------|

Repeat until fade-out:
e|--------------------------------------------------------------|
B|--------------------------------------------------------------|
G|-17--17----------------------------------------17—171919br----|
D|---19--1917--17------------------------17--1719--19-----------|
A|-----------19--191817--17------17--1719--19-------------------|
E|---------------------20--201720--20---------------------------|

Techniek

  • p: Pull-off
  • b: Bend
  • br: Bend release

Notes

  • Sleutel: Vermoedelijk Am
  • Toonladder: Am pentatonisch
  • Eén van de gitaristen schijnt met een dropped-D tuning te spelen, en de ander in gewone tuning [1] [2]. In de praktijk is dat waarschijnlijk niet bijster relevant
  • Wordt hier gespeeld met twee gitaren en een basgitaar. De intro wordt rond de 5e/7e fret gespeeld (en niet ronde de 2e fret, zoals de transcripties op Ultimate Guitar zeggen)
  • Bassist Jeff Ament speelt op een fretloze bas.
F/C: Just skip the lower E-string

Zie ook

Resources

Performances

Tutorials

Ultimate Guitar