Koyaanisqatsi

Uit WikiStrompf
Ga naar: navigatie, zoeken

Koyaanisqatsi is a strange, hypnotic piece of music. It sounds fantastic on its own or other instruments and riffs on top of it. The tab is a bit cluttered and confusing, but sure you'll be able to work it out :)

Bass part

|-----------------------------|
|-----------------------------|
|--5----3----1----8--7--5--0--|
|-----------------------------|

Mid-range arpeggio bit:

|--------------------------------------------------------------------|
|---------------------------------------------------------------8----|
|--7---7---7---7---9---9---9---9---7---7---7---7---7---9---10--------|
|----7---7---7---7---7---7---7---7---5---5---5---5---7---7----7---7--|
|--------------------------------------------------------------------|
|--------------------------------------------------------------------|

Evil organ riff!!!

|----1-3-5-3-1-0-----0-1-5-3-1-0-----1-3-5-3-1-3-5-6-5-6-5-3-1-0--|
|--3---------------1---------------3------------------------------|
|-----------------------------------------------------------------|
|-----------------------------------------------------------------|
|-----------------------------------------------------------------|
|-----------------------------------------------------------------|

Resources