Iggy Pop - In the Death Car

Uit WikiStrompf
Ga naar: navigatie, zoeken

Dm - No capo - Pentatonic

Intro

Dm Gm6 A Dm

                                  Gm6    (Gm6/Bb)      A                      Dm

------5----5---1---1------------------0--------0----------3---3--0--0---------------1--------1-|
----------------------3--3------------3--------3----------------------2-------------3--------3-|
----------------------------------3---3--------3-----------------0------3------2----2--------2-|
---0---------------------------------------------------0-----------------------0---------------|
-------------------------------------------1---------------------------------------------0-----|
----------------------------------3------------------------------------------------------------|

   Dm                        Gm6                         A                      Dm

------5----5---1---1---------------3----1---0----------------------0--------------------------------|
----------------------3--3----------------------3--2-------2--2--3----3--3--2---3-------------------|
----------------------------------------------------------------------------------------------------|
---0----------------------------------------------------------------------------0---0--2--3--2--0---|
--------------------------------------------1------------0------------------------0---------------0-|
------------------------------3---------------------------------------------------------------------|

Verse 1

Dm                              Gm6
A howling wind is whistling in the night
A                   Dm
My dog is growling in the dark
Dm                        Gm6
Something’s pulling me outside
A                Dm
To ride around in circles
Dm                   Gm6
I know that you have got the time
A                     Dm
Cause anything I want, you do
Dm                             Gm6
You’ll take a ride through the strangers
     A                     Dm
Who don’t understand how to feel

Chorus 1

Dm                           Gm6 A
In the deathcar, we’re alive
Dm                           Gm6 A  Dm
In the deathcar, we’re alive

Verse 2

Dm                              Gm6
I’ll let some air come in the window
A                            Dm
It kind of wakes me up a little
Dm                              Gm6
I don’t turn on the radio
A                            Dm
Cause they play shit, like ..., you know
Dm                              Gm6
When your hand was down on my dick
A                            Dm
It felt quite amazing
Dm                              Gm6
And now that, that is all over
A                            Dm
All we’ve got is the silence

Chorus 2

Dm                           Gm6 A
In the deathcar, we’re alive
Dm                           Gm6 A  Dm
In the deathcar, we’re alive

Verse 3

Dm                              Gm6
When I touched you I felt that
A                            Dm
You still had your baby fat
Dm                              Gm6
And a little taste of baby’s breath
A                            Dm
Makes me forget about death

Dm                              Gm6
At your age you’re still joking
A                            Dm
It ain’t time yet for the choking
Dm                              Gm6
So now we can own the movie
A                            Dm
And know each other truly

Notes

  • No Capo
  • Key: D

Scale: Dm-pentatonic

Noten: D  F  G  A  C

Guitaar:

e |----|----|----|=D==|----|----|-F--|----|
B |----|----|----|-A--|----|----|-C--|----|
G |----|----|----|-F--|----|-G--|----|----|
D |----|----|----|-C--|----|=D==|----|----|
A |----|----|----|-G--|----|-A--|----|----|
E |----|----|----|=D==|----|----|-F--|----|
  |    |    |    | 10 |    | 12 |    |    |

Bas:

G |----|----|----|-F--|----|-G--|----|----|
D |----|----|----|-C--|----|=D==|----|----|
A |----|----|----|-G--|----|-A--|----|----|
E |----|----|----|=D==|----|----|-F--|----|
  |    |    |    | 10 |    | 12 |    |    |

Sources

Ultimate Guitar