Billy Eilish - I love you

Uit WikiStrompf
Ga naar: navigatie, zoeken

Intro

   F(maj7)♭5                              F(maj7)♭5
e|--------------0----------------0----|--------------0---------------0---|
B|-----0-----------------0------------|-----0-----------------0----------|
G|---2--------2--------2-------2------|---2--------2--------2------2-----|
D|-3--------3--------3-------3--------|-3--------3--------3------3-------|
A|------------------------------------|----------------------------------|
E|-----1------------------------------|----------------------------------|

         C(maj7)                          C(maj7)
e|------------------0--------------0-|--------------0--------------0--------|
B|---------0--------------0----------|------0--------------0-------------0--|
G|---2-----0------0-----0--------0---|----0-------0------0-------0-----0----|
D|-3------------2-----2--------2-----|--2-------2------2-------2-----2------|
A|---------3-------------------------|--------------------------------------|
E|-----------------------------------|--------------------------------------|

Verse 1

         F(maj7)♭5
It's not true
                  C(maj7)
Tell me I've been lied to
             F(maj7)♭5                   C(maj7)
Crying isn't like you, ooh ohh ohh ohh ohhh 
                  F(maj7)♭5
What the hell did I do?
               C(maj7)
Never been the type to
                F(maj7)♭5                        C(maj7)
Let someone see right through, ooh ohh ohh ohh ohhh 

Chorus 1

F(maj7)             G6
Baby, won't you take it back?
    Am             Dm
Say you were tryna make me laugh
      G7*           Am7
And nothing has to change today
     G7             G          Am   Asus2
You didn't mean to say "I love you"
       C   Cadd9  C(maj7)
I love you      
            F(maj7)    F(maj7)♭5          C(maj7)
and I don't want to, ooh  ooh ooh ooh ohh

Verse 2

       F(maj7)♭5          C(maj7)
Up all night on another red-eye
                  F(maj7)♭5       C(maj7)
We wish we never learned to fly high
                F(maj7)♭5
Maybe we should just try
                    C(maj7)
To tell ourselves a good lie
                 F(maj7)♭5      C(maj7)
I didn't mean to make you cry, I

Chorus 2

F(maj7)          G6
Baby, won't you take it back?
    Am             Dm
Say you were tryna make me laugh
      G7*           Am7
And nothing has to change today
     G7             G          Am   Asus2
You didn't mean to say "I love you"
        C  Cadd9  C(maj7)
I love you 
            F(maj7)    F(maj7)♭5          C(maj7)
and I don't want to, ooh  ooh ooh ooh ohh

Bridge

     Dm7
The smile that you gave me
      G                       F(maj7)  F(maj7)♭5
Even when you felt like dying

[Verse 3]
   F(maj7)       G6
We fall apart as it gets dark
    Am                Dm
I'm in your arms in Central Park
         G7*              Am7
There's nothing you could do or say
   G7               G          Am  Asus2
I can't escape the way, I love you
             C   Cadd9  C(maj7)
I don't want to, 
           F(maj7)  F(maj7)♭5
but I love you,      
                  C(maj7)
ooh ooh ooh, ooh, ooh

Outtro

                  F(maj7)♭5
ooh ooh ooh, ooh, ooh
                  C(maj7)
ooh ooh ooh, ooh, ooh
                  F(maj7)♭5
ooh ooh ooh, ooh, ooh
                  N.C
ooh ooh ooh, ooh, ooh

Akkoorden

F(maj7)♭5 - Gitaar
C(maj7) - Gitaar

Bronnen