Here comes the sun

Uit WikiStrompf
(Doorverwezen vanaf Beatles - Here comes the Sun)
Ga naar: navigatie, zoeken

A - Capo 7

Intro

D D G A7
D D G A7

Chorus 1

D
  Here comes the sun (doo doo doo doo)
G                E7
  Here comes the sun
          D
And I say   its alright

Break

e|----------0--------0--------0--------0---------------|
B|-------3---------3--------3--------3-----3--2--0-----|
G|--2/4----------2--------0--------2----------------2--|
D|-----------------------------------------------------|
A|-----------------------------------------------------|
E|-----------------------------------------------------|

e|----2-----0--2-------------------0---|
B|-3-----3---------0--2--0--2--3--(2)--|
G|-2---------------0-------------------|
D|-0---------------2-------------------|
A|-----------------0-------------------|
E|-------------------------------------|

Verse 1

D                            G                  A7
 Little darling, its been a long, cold, lonely winter
D                               G                    A7
 Little darling it feels like years since its been here

Chorus 2

D
  Here comes the sun (doo doo doo doo)
G                 E7
  Here comes the sun
          D
And I say   its alright

Break 2

e|----------0--------0--------0--------0--------------|
B|-------3--------3--------3--------3-----3--2--0-----|
G|--2/4--------2--------0--------2-----------------2--|
D|----------------------------------------------------|
A|----------------------------------------------------|
E|----------------------------------------------------|

e|----2-----0--2-------------------0---|
B|-3-----3---------0--2--0--2--3--(2)--|
G|-2---------------0-------------------|
D|-0---------------2-------------------|
A|-----------------0-------------------|
E|-------------------------------------|

Verse 2

D                              G                  A7
 Little darling, the smile's returning to their faces,
D                               G                     A7
 Little darling, it seems like years since its been here

Chorus 3

D
  Here comes the sun (doo doo doo doo)
G                 E7
  Here comes the sun
          D
And I say  its alright

Break 3

e|----------0--------0--------0--------0--------------|
B|-------3--------3--------3--------3-----3--2--0-----|
G|--2/4--------2--------0--------2-----------------2--|
D|----------------------------------------------------|
A|----------------------------------------------------|
E|----------------------------------------------------|

e|----2-----0--2----------------------|
B|-3-----3---------0--2---------------|
G|-2---------------0--0---------------|
D|-0---------------2--2----2*---------|
A|-----------------0--0----0*---------|
E|------------------------------------|
*notes played by other instruments are indicated by asterisks (optional)

E|--------------------------------------------2-----|
B|-----------------1--------------------------3--2--|
G|--------------2-----------0--------0--------2--0--|
D|--------2--3-----------2--------0-----------0--2--|
A|--0--4--------------3--------2-----------2-----0--|
E|--------------------------------------3-----------|

F     C   G/B   G        D     A7
Sun, sun, sun, here it comes (x5)
A7 A7sus4 A7

Verse 3

D                             G               A7
 Little darling, i feel that ice is slowly melting,
D                               G                      A7
 Little darling, it seems like years since its been clear

Chorus 4

D
  Here comes the sun
G                E7
  Here comes the sun
           D
And I say    its alright

Break 4

e|----------0--------0--------0--------0--------------|
B|-------3--------3--------3--------3-----3--2--0-----|
G|--2/4--------2--------0--------2-----------------2--|
D|----------------------------------------------------|
A|----------------------------------------------------|
E|----------------------------------------------------|
<pre>

''' Chorus 4 '''

<pre>
D
  Here comes the sun.
G                E7
  Here comes the sun
D
 It's alright

Break 5

e|----------0--------0--------0--------0--------------|
B|-------3--------3--------3--------3-----3--2--0-----|
G|--2/4--------2--------0--------2-----------------2--|
D|----------------------------------------------------|
A|----------------------------------------------------|
E|----------------------------------------------------|

Outro

D
Its alright

e|----------0--------0--------0--------0--------------|
B|-------3--------3--------3--------3-----3--2--0-----|
G|--2/4--------2--------0--------2-----------------2--|
D|----------------------------------------------------|
A|----------------------------------------------------|
E|----------------------------------------------------|

E|-----------------------------------2-----|
B|--------1--------------------------3-----|
G|-----2-----------0--------0--------2-----|
D|--3-----------2--------0-----------0-----|
A|-----------3--------2-----------2--------|
E|-----------------------------3-----------|